  0
SECTION
  2
HEADER
  9
$ACADVER
  1
AC1009
  9
$INSBASE
 10
166.0853652371724
 20
110.586956521739
 30
0.0
  9
$EXTMIN
 10
165.8040606695003
 20
110.586956521739
 30
0.0
  9
$EXTMAX
 10
205.3666698048447
 20
145.7368673929937
 30
0.0
  9
$LIMMIN
 10
0.0
 20
0.0
  9
$LIMMAX
 10
420.0
 20
297.0
  9
$ORTHOMODE
 70
     0
  9
$REGENMODE
 70
     0
  9
$FILLMODE
 70
     1
  9
$QTEXTMODE
 70
     0
  9
$MIRRTEXT
 70
     0
  9
$DRAGMODE
 70
     2
  9
$LTSCALE
 40
1.0
  9
$OSMODE
 70
     0
  9
$ATTMODE
 70
     1
  9
$TEXTSIZE
 40
3.5
  9
$TRACEWID
 40
0.1
  9
$TEXTSTYLE
  7
STANDARD
  9
$CLAYER
  8
0
  9
$CELTYPE
  6
BYLAYER
  9
$CECOLOR
 62
   256
  9
$DIMSCALE
 40
1.0
  9
$DIMASZ
 40
2.0
  9
$DIMEXO
 40
1.0
  9
$DIMDLI
 40
8.0
  9
$DIMRND
 40
0.0
  9
$DIMDLE
 40
0.0
  9
$DIMEXE
 40
2.0
  9
$DIMTP
 40
0.1
  9
$DIMTM
 40
0.1
  9
$DIMTXT
 40
3.5
  9
$DIMCEN
 40
2.0
  9
$DIMTSZ
 40
0.0
  9
$DIMTOL
 70
     0
  9
$DIMLIM
 70
     0
  9
$DIMTIH
 70
     0
  9
$DIMTOH
 70
     0
  9
$DIMSE1
 70
     0
  9
$DIMSE2
 70
     0
  9
$DIMTAD
 70
     1
  9
$DIMZIN
 70
     0
  9
$DIMBLK
  1

  9
$DIMASO
 70
     1
  9
$DIMSHO
 70
     0
  9
$DIMPOST
  1

  9
$DIMAPOST
  1

  9
$DIMALT
 70
     0
  9
$DIMALTD
 70
     2
  9
$DIMALTF
 40
25.39999999999999
  9
$DIMLFAC
 40
1.0
  9
$DIMTOFL
 70
     0
  9
$DIMTVP
 40
0.0
  9
$DIMTIX
 70
     0
  9
$DIMSOXD
 70
     0
  9
$DIMSAH
 70
     0
  9
$DIMBLK1
  1

  9
$DIMBLK2
  1

  9
$DIMSTYLE
  2
*UNNAMED
  9
$DIMCLRD
 70
     0
  9
$DIMCLRE
 70
     0
  9
$DIMCLRT
 70
     0
  9
$DIMTFAC
 40
1.0
  9
$DIMGAP
 40
0.09
  9
$LUNITS
 70
     2
  9
$LUPREC
 70
     3
  9
$SKETCHINC
 40
0.1
  9
$FILLETRAD
 40
20.0
  9
$AUNITS
 70
     0
  9
$AUPREC
 70
     1
  9
$MENU
  1

  9
$ELEVATION
 40
0.0
  9
$PELEVATION
 40
0.0
  9
$THICKNESS
 40
0.0
  9
$LIMCHECK
 70
     0
  9
$BLIPMODE
 70
     0
  9
$CHAMFERA
 40
0.0
  9
$CHAMFERB
 40
0.0
  9
$SKPOLY
 70
     1
  9
$TDCREATE
 40
2448530.583552777
  9
$TDUPDATE
 40
2449393.438506944
  9
$TDINDWG
 40
0.0009804398
  9
$TDUSRTIMER
 40
0.0009804398
  9
$USRTIMER
 70
     1
  9
$ANGBASE
 50
0.0
  9
$ANGDIR
 70
     0
  9
$PDMODE
 70
     0
  9
$PDSIZE
 40
0.0
  9
$PLINEWID
 40
0.0
  9
$COORDS
 70
     2
  9
$SPLFRAME
 70
     0
  9
$SPLINETYPE
 70
     6
  9
$SPLINESEGS
 70
     8
  9
$ATTDIA
 70
     1
  9
$ATTREQ
 70
     1
  9
$HANDLING
 70
     0
  9
$HANDSEED
  5
53
  9
$SURFTAB1
 70
     6
  9
$SURFTAB2
 70
     6
  9
$SURFTYPE
 70
     6
  9
$SURFU
 70
     6
  9
$SURFV
 70
     6
  9
$UCSNAME
  2

  9
$UCSORG
 10
0.0
 20
0.0
 30
0.0
  9
$UCSXDIR
 10
1.0
 20
0.0
 30
0.0
  9
$UCSYDIR
 10
0.0
 20
1.0
 30
0.0
  9
$PUCSNAME
  2

  9
$PUCSORG
 10
0.0
 20
0.0
 30
0.0
  9
$PUCSXDIR
 10
1.0
 20
0.0
 30
0.0
  9
$PUCSYDIR
 10
0.0
 20
1.0
 30
0.0
  9
$USERI1
 70
     0
  9
$USERI2
 70
     3
  9
$USERI3
 70
    15
  9
$USERI4
 70
     0
  9
$USERI5
 70
     0
  9
$USERR1
 40
1.0
  9
$USERR2
 40
1.0
  9
$USERR3
 40
0.0
  9
$USERR4
 40
1.0
  9
$USERR5
 40
0.0
  9
$WORLDVIEW
 70
     1
  9
$SHADEDGE
 70
     3
  9
$SHADEDIF
 70
    70
  9
$TILEMODE
 70
     1
  9
$MAXACTVP
 70
    16
  9
$PINSBASE
 10
0.0
 20
0.0
 30
0.0
  9
$PLIMCHECK
 70
     0
  9
$PEXTMIN
 10
1.000000000000000E+20
 20
1.000000000000000E+20
 30
1.000000000000000E+20
  9
$PEXTMAX
 10
-1.000000000000000E+20
 20
-1.000000000000000E+20
 30
-1.000000000000000E+20
  9
$PLIMMIN
 10
0.0
 20
0.0
  9
$PLIMMAX
 10
12.0
 20
9.0
  9
$UNITMODE
 70
     0
  9
$VISRETAIN
 70
     0
  9
$PLINEGEN
 70
     0
  9
$PSLTSCALE
 70
     0
  9
$TREEDEPTH
 70
  3020
  9
$DWGCODEPAGE
  3
undefined
  0
ENDSEC
  0
SECTION
  2
TABLES
  0
TABLE
  2
VPORT
 70
     2
  0
VPORT
  2
*ACTIVE
 70
     0
 10
0.0
 20
0.0
 11
1.0
 21
1.0
 12
190.248015839582
 22
129.5280173753229
 13
0.0
 23
0.0
 14
1.0
 24
1.0
 15
10.0
 25
10.0
 16
0.0
 26
0.0
 36
1.0
 17
0.0
 27
0.0
 37
0.0
 40
37.88212170716768
 41
1.275675675675675
 42
50.0
 43
0.0
 44
0.0
 50
0.0
 51
0.0
 71
     0
 72
   100
 73
     1
 74
     1
 75
     0
 76
     0
 77
     0
 78
     0
  0
ENDTAB
  0
TABLE
  2
LTYPE
 70
     1
  0
LTYPE
  2
AUSGEZOGEN
 70
    64
  3
Solid line
 72
    65
 73
     0
 40
0.0
  0
ENDTAB
  0
TABLE
  2
LAYER
 70
     3
  0
LAYER
  2
0
 70
     0
 62
     7
  6
AUSGEZOGEN
  0
LAYER
  2
ITEM_50
 70
    64
 62
     7
  6
AUSGEZOGEN
  0
LAYER
  2
ITEM_25
 70
    64
 62
     3
  6
AUSGEZOGEN
  0
ENDTAB
  0
TABLE
  2
STYLE
 70
     1
  0
STYLE
  2
STANDARD
 70
     0
 40
0.0
 41
1.0
 50
0.0
 71
     0
 42
3.5
  3
iso
  4

  0
ENDTAB
  0
TABLE
  2
VIEW
 70
     0
  0
ENDTAB
  0
TABLE
  2
UCS
 70
     0
  0
ENDTAB
  0
TABLE
  2
APPID
 70
     1
  0
APPID
  2
ACAD
 70
    64
  0
ENDTAB
  0
TABLE
  2
DIMSTYLE
 70
     0
  0
ENDTAB
  0
ENDSEC
  0
SECTION
  2
BLOCKS
  0
ENDSEC
  0
SECTION
  2
ENTITIES
  0
LINE
  8
ITEM_50
 10
181.5853652371724
 20
139.0869565217391
 30
0.0
 11
181.5853652371724
 21
132.0869565217391
 31
0.0
  0
LINE
  8
ITEM_50
 10
189.5853652371724
 20
139.0869565217391
 30
0.0
 11
189.5853652371724
 21
132.0869565217391
 31
0.0
  0
LINE
  8
ITEM_25
 10
182.1853652371724
 20
139.0869565217391
 30
0.0
 11
182.1853652371724
 21
132.0869565217391
 31
0.0
  0
LINE
  8
ITEM_25
 10
188.9853652371724
 20
139.0869565217391
 30
0.0
 11
188.9853652371724
 21
132.0869565217391
 31
0.0
  0
LINE
  8
ITEM_25
 10
183.2723869998467
 20
126.2809372446242
 30
0.0
 11
187.7521013124451
 21
126.2809372446242
 31
0.0
  0
LINE
  8
ITEM_25
 10
183.2723869998467
 20
123.9894854021562
 30
0.0
 11
187.7521013124451
 21
123.9894854021562
 31
0.0
  0
ARC
  8
ITEM_50
 10
180.5853652371724
 20
126.086956521739
 30
0.0
 40
1.0
 50
0.0
 51
90.0
  0
ARC
  8
ITEM_50
 10
190.5853652371724
 20
126.0869565217391
 30
0.0
 40
1.0
 50
90.0
 51
179.9999999999993
  0
ARC
  8
ITEM_50
 10
186.4853652371724
 20
119.086956521739
 30
0.0
 40
5.75
 50
37.49524976456363
 51
52.59772320083239
  0
ARC
  8
ITEM_50
 10
190.5853652371724
 20
124.4490922902548
 30
0.0
 40
1.0
 50
180.0
 51
232.5977232008322
  0
ARC
  8
ITEM_50
 10
180.5853652371724
 20
124.4490922902545
 30
0.0
 40
1.0
 50
307.4022767991702
 51
0.0
  0
LINE
  8
ITEM_50
 10
189.5853652371724
 20
124.4490922902548
 30
0.0
 11
189.5853652371724
 21
126.0869565217391
 31
0.0
  0
LINE
  8
ITEM_50
 10
181.5853652371724
 20
124.4490922902545
 30
0.0
 11
181.5853652371724
 21
126.086956521739
 31
0.0
  0
ARC
  8
ITEM_50
 10
184.6853652371724
 20
119.086956521739
 30
0.0
 40
5.75
 50
127.4022767991696
 51
142.5047502354363
  0
ARC
  8
ITEM_50
 10
180.1928652371724
 20
129.1594038257671
 30
0.0
 40
2.927552695971968
 50
90.0
 51
127.8788640616861
  0
LINE
  8
ITEM_50
 10
185.5853652371724
 20
132.0869565217391
 30
0.0
 11
180.1928652371724
 21
132.0869565217391
 31
0.0
  0
LINE
  8
ITEM_50
 10
190.9778652371724
 20
132.0869565217391
 30
0.0
 11
185.5853652371724
 21
132.0869565217391
 31
0.0
  0
ARC
  8
ITEM_50
 10
190.9778652371724
 20
129.1594038257671
 30
0.0
 40
2.927552695971969
 50
52.12113593831387
 51
90.0
  0
LINE
  8
ITEM_50
 10
192.7753652371724
 20
127.7037607377391
 30
0.0
 11
192.7753652371724
 21
131.4701523057391
 31
0.0
  0
ARC
  8
ITEM_50
 10
190.9778652371724
 20
130.014509217711
 30
0.0
 40
2.927552695971968
 50
270.0
 51
307.8788640616861
  0
LINE
  8
ITEM_50
 10
185.5853652371724
 20
127.0869565217391
 30
0.0
 11
190.9778652371724
 21
127.0869565217391
 31
0.0
  0
LINE
  8
ITEM_50
 10
180.1928652371724
 20
127.0869565217391
 30
0.0
 11
185.5853652371724
 21
127.0869565217391
 31
0.0
  0
ARC
  8
ITEM_50
 10
180.1928652371724
 20
130.014509217711
 30
0.0
 40
2.927552695971969
 50
232.1211359383138
 51
270.0
  0
LINE
  8
ITEM_50
 10
178.3953652371724
 20
131.4701523057391
 30
0.0
 11
178.3953652371724
 21
127.7037607377391
 31
0.0
  0
LINE
  8
ITEM_50
 10
181.9903652371724
 20
127.7037607377391
 30
0.0
 11
181.9903652371724
 21
131.4701523057391
 31
0.0
  0
LINE
  8
ITEM_50
 10
189.1803652371724
 20
127.7037607377391
 30
0.0
 11
189.1803652371724
 21
131.4701523057391
 31
0.0
  0
ARC
  8
ITEM_50
 10
180.1928652371724
 20
129.159403825767
 30
0.0
 40
2.927552695972053
 50
52.12113593831445
 51
89.99999999999991
  0
ARC
  8
ITEM_50
 10
185.5853652371724
 20
121.301952061851
 30
0.0
 40
10.78500445988803
 50
70.52878774236927
 51
109.4712122576307
  0
ARC
  8
ITEM_50
 10
190.9778652371724
 20
129.159403825767
 30
0.0
 40
2.927552695972053
 50
90.00000000000005
 51
127.8788640616855
  0
ARC
  8
ITEM_50
 10
180.1928652371724
 20
130.0145092177111
 30
0.0
 40
2.927552695972053
 50
270.0
 51
307.8788640616855
  0
ARC
  8
ITEM_50
 10
185.5853652371724
 20
137.8719609816271
 30
0.0
 40
10.78500445988805
 50
250.5287877423693
 51
289.4712122576307
  0
ARC
  8
ITEM_50
 10
190.9778652371724
 20
130.0145092177111
 30
0.0
 40
2.927552695972053
 50
232.1211359383144
 51
269.9999999999999
  0
LINE
  8
ITEM_25
 10
170.0853652371724
 20
114.586956521739
 30
0.0
 11
201.0853652371724
 21
114.586956521739
 31
0.0
  0
ARC
  8
ITEM_50
 10
195.4285109876751
 20
118.586956521739
 30
0.0
 40
4.0
 50
45.0000000000205
 51
89.99999999999992
  0
ARC
  8
ITEM_50
 10
201.0853652371724
 20
112.9301022722458
 30
0.0
 40
4.0
 50
0.0
 51
45.00000000002055
  0
ARC
  8
ITEM_50
 10
175.7422194866688
 20
118.586956521739
 30
0.0
 40
4.0
 50
89.99999999999992
 51
135.0
  0
ARC
  8
ITEM_50
 10
170.0853652371724
 20
112.9301022722426
 30
0.0
 40
4.0
 50
135.0
 51
180.0000000000003
  0
LINE
  8
ITEM_50
 10
205.0853652371724
 20
110.586956521739
 30
0.0
 11
166.0853652371724
 21
110.586956521739
 31
0.0
  0
LINE
  8
ITEM_50
 10
205.0853652371724
 20
112.9301022722458
 30
0.0
 11
205.0853652371724
 21
110.586956521739
 31
0.0
  0
LINE
  8
ITEM_50
 10
198.2569381124203
 20
121.4153836464862
 30
0.0
 11
203.9137923619176
 21
115.758529396993
 31
0.0
  0
LINE
  8
ITEM_50
 10
175.7422194866688
 20
122.586956521739
 30
0.0
 11
195.4285109876751
 21
122.586956521739
 31
0.0
  0
LINE
  8
ITEM_50
 10
167.2569381124262
 20
115.7585293969888
 30
0.0
 11
172.9137923619226
 21
121.4153836464852
 31
0.0
  0
LINE
  8
ITEM_50
 10
166.0853652371724
 20
110.586956521739
 30
0.0
 11
166.0853652371724
 21
112.9301022722426
 31
0.0
  0
ARC
  8
ITEM_50
 10
180.1928652371724
 20
142.6594038257671
 30
0.0
 40
2.927552695971971
 50
89.99999999999998
 51
127.878864061686
  0
LINE
  8
ITEM_50
 10
185.5853652371724
 20
145.5869565217391
 30
0.0
 11
180.1928652371724
 21
145.5869565217391
 31
0.0
  0
LINE
  8
ITEM_50
 10
190.9778652371724
 20
145.5869565217391
 30
0.0
 11
185.5853652371724
 21
145.5869565217391
 31
0.0
  0
ARC
  8
ITEM_50
 10
190.9778652371724
 20
142.6594038257671
 30
0.0
 40
2.927552695971973
 50
52.12113593831395
 51
90.00000000000001
  0
LINE
  8
ITEM_50
 10
192.7753652371724
 20
139.7037607377391
 30
0.0
 11
192.7753652371724
 21
144.9701523057391
 31
0.0
  0
ARC
  8
ITEM_50
 10
190.9778652371724
 20
142.014509217711
 30
0.0
 40
2.927552695971976
 50
270.0
 51
307.878864061686
  0
LINE
  8
ITEM_50
 10
185.5853652371724
 20
139.0869565217391
 30
0.0
 11
190.9778652371724
 21
139.0869565217391
 31
0.0
  0
LINE
  8
ITEM_50
 10
180.1928652371724
 20
139.0869565217391
 30
0.0
 11
185.5853652371724
 21
139.0869565217391
 31
0.0
  0
ARC
  8
ITEM_50
 10
180.1928652371724
 20
142.014509217711
 30
0.0
 40
2.927552695971979
 50
232.121135938314
 51
270.0
  0
LINE
  8
ITEM_50
 10
178.3953652371724
 20
144.9701523057391
 30
0.0
 11
178.3953652371724
 21
139.7037607377391
 31
0.0
  0
ARC
  8
ITEM_50
 10
190.9778652371724
 20
142.0145092177111
 30
0.0
 40
2.927552695972053
 50
232.1211359383144
 51
269.9999999999999
  0
ARC
  8
ITEM_50
 10
185.5853652371724
 20
149.8719609816271
 30
0.0
 40
10.78500445988805
 50
250.5287877423693
 51
289.4712122576307
  0
ARC
  8
ITEM_50
 10
180.1928652371724
 20
142.0145092177111
 30
0.0
 40
2.927552695972053
 50
270.0
 51
307.8788640616855
  0
ARC
  8
ITEM_50
 10
190.9778652371724
 20
142.659403825767
 30
0.0
 40
2.927552695972053
 50
90.00000000000005
 51
127.8788640616855
  0
ARC
  8
ITEM_50
 10
185.5853652371724
 20
134.801952061851
 30
0.0
 40
10.78500445988803
 50
70.52878774236927
 51
109.4712122576307
  0
ARC
  8
ITEM_50
 10
180.1928652371724
 20
142.659403825767
 30
0.0
 40
2.927552695972053
 50
52.12113593831445
 51
89.99999999999991
  0
LINE
  8
ITEM_50
 10
189.1803652371724
 20
139.7037607377391
 30
0.0
 11
189.1803652371724
 21
144.9701523057391
 31
0.0
  0
LINE
  8
ITEM_50
 10
181.9903652371724
 20
139.7037607377391
 30
0.0
 11
181.9903652371724
 21
144.9701523057391
 31
0.0
  0
ENDSEC
  0
EOF
